0
SECTION
2
HEADER
9
$INSUNITS
70
4
9
$ACADVER
1
AC1014
9
$HANDSEED
5
FFFF
0
ENDSEC
0
SECTION
2
TABLES
0
TABLE
2
VPORT
5
8
100
AcDbSymbolTable
0
ENDTAB
0
TABLE
2
LTYPE
5
5
100
AcDbSymbolTable
0
LTYPE
5
14
100
AcDbSymbolTableRecord
100
AcDbLinetypeTableRecord
2
BYBLOCK
70
0
0
LTYPE
5
15
100
AcDbSymbolTableRecord
100
AcDbLinetypeTableRecord
2
BYLAYER
70
0
0
ENDTAB
0
TABLE
2
LAYER
5
2
100
AcDbSymbolTable
70
2
0
LAYER
5
50
100
AcDbSymbolTableRecord
100
AcDbLayerTableRecord
2
0
70
0
6
CONTINUOUS
0
ENDTAB
0
TABLE
2
STYLE
5
3
100
AcDbSymbolTable
70
1
0
STYLE
5
11
100
AcDbSymbolTableRecord
100
AcDbTextStyleTableRecord
2
STANDARD
70
0
0
ENDTAB
0
TABLE
2
VIEW
5
6
100
AcDbSymbolTable
70
0
0
ENDTAB
0
TABLE
2
UCS
5
7
100
AcDbSymbolTable
70
0
0
ENDTAB
0
TABLE
2
APPID
5
9
100
AcDbSymbolTable
70
2
0
APPID
5
12
100
AcDbSymbolTableRecord
100
AcDbRegAppTableRecord
2
ACAD
70
0
0
ENDTAB
0
TABLE
2
DIMSTYLE
5
A
100
AcDbSymbolTable
70
1
0
ENDTAB
0
TABLE
2
BLOCK_RECORD
5
1
100
AcDbSymbolTable
70
1
0
BLOCK_RECORD
5
1F
100
AcDbSymbolTableRecord
100
AcDbBlockTableRecord
2
*MODEL_SPACE
0
BLOCK_RECORD
5
1B
100
AcDbSymbolTableRecord
100
AcDbBlockTableRecord
2
*PAPER_SPACE
0
ENDTAB
0
ENDSEC
0
SECTION
2
BLOCKS
0
BLOCK
5
20
100
AcDbEntity
100
AcDbBlockBegin
2
*MODEL_SPACE
0
ENDBLK
5
21
100
AcDbEntity
100
AcDbBlockEnd
0
BLOCK
5
1C
100
AcDbEntity
100
AcDbBlockBegin
2
*PAPER_SPACE
0
ENDBLK
5
1D
100
AcDbEntity
100
AcDbBlockEnd
0
ENDSEC
0
SECTION
2
ENTITIES
0
LINE
5
100
100
AcDbEntity
8
0
100
AcDbLine
10
-10.466413963930989
20
0.031521462075296824
30
0
11
-10.466413963930979
21
26.011521462075301
31
0
0
LINE
5
101
100
AcDbEntity
8
0
100
AcDbLine
10
-11.966413963930993
20
5.0315214620752968
30
0
11
-8.9664139639309948
21
5.0315214620752968
31
0
0
LINE
5
102
100
AcDbEntity
8
0
100
AcDbLine
10
-8.9664139639309948
20
5.0315214620752968
30
0
11
-8.9664139639309948
21
0.031521462075296824
31
0
0
LINE
5
103
100
AcDbEntity
8
0
100
AcDbLine
10
-11.966413963930993
20
0.031521462075296824
30
0
11
-11.966413963930993
21
5.0315214620752968
31
0
0
LINE
5
104
100
AcDbEntity
8
0
100
AcDbLine
10
-8.9664139639309859
20
21.011521462075301
30
0
11
-11.966413963930984
21
21.011521462075301
31
0
0
LINE
5
105
100
AcDbEntity
8
0
100
AcDbLine
10
-8.9664139639309859
20
23.413521462075309
30
0
11
-8.9664139639309859
21
21.011521462075301
31
0
0
LINE
5
106
100
AcDbEntity
8
0
100
AcDbLine
10
-11.966413963930984
20
21.011521462075301
30
0
11
-11.966413963930984
21
23.413521462075295
31
0
0
LINE
5
107
100
AcDbEntity
8
0
100
AcDbLine
10
-22.46597395747747
20
0.031521462075296963
30
0
11
-11.966413963930993
21
0.031521462075296824
31
0
0
LINE
5
108
100
AcDbEntity
8
0
100
AcDbLine
10
-8.9664139639309948
20
0.031521462075296824
30
0
11
1.5331460296154928
21
0.031521462075296824
31
0
0
LINE
5
109
100
AcDbEntity
8
0
100
AcDbLine
10
-25.466413963930989
20
0.031521462075296824
30
0
11
-2.9664139639309841
21
13.021521462075299
31
0
0
LINE
5
110
100
AcDbEntity
8
0
100
AcDbLine
10
-17.966413963930986
20
13.021521462075299
30
0
11
4.5335860360690106
21
0.031521462075296824
31
0
0
LINE
5
111
100
AcDbEntity
8
0
100
AcDbLine
10
-6.5467609860799332
20
9.2224833563986373
30
0
11
-8.0467609860799332
21
11.82055956775195
31
0
0
LINE
5
112
100
AcDbEntity
8
0
100
AcDbLine
10
-8.0467609860799332
20
11.82055956775195
30
0
11
-3.7166339671577386
21
14.320559567751946
31
0
0
LINE
5
113
100
AcDbEntity
8
0
100
AcDbLine
10
-2.2166339671577395
20
11.722483356398634
30
0
11
-6.5467609860799332
21
9.2224833563986373
31
0
0
LINE
5
114
100
AcDbEntity
8
0
100
AcDbLine
10
-12.886066941782026
20
11.820559567751962
30
0
11
-14.386066941782026
21
9.2224833563986497
31
0
0
LINE
5
115
100
AcDbEntity
8
0
100
AcDbLine
10
-14.386066941782026
20
9.2224833563986497
30
0
11
-18.716193960704217
21
11.72248335639865
31
0
0
LINE
5
116
100
AcDbEntity
8
0
100
AcDbLine
10
-17.216193960704217
20
14.320559567751964
30
0
11
-12.886066941782026
21
11.820559567751962
31
0
0
LINE
5
117
100
AcDbEntity
8
0
100
AcDbLine
10
-23.966039958445506
20
2.6295595677519534
30
0
11
-21.885846938555275
21
3.8305595677519588
31
0
0
LINE
5
118
100
AcDbEntity
8
0
100
AcDbLine
10
-21.885846938555275
20
3.8305595677519588
30
0
11
-20.385846938555268
21
1.2324833563986459
31
0
0
LINE
5
119
100
AcDbEntity
8
0
100
AcDbLine
10
-20.385846938555268
20
1.2324833563986459
30
0
11
-22.466039958445485
21
0.031483356398647189
31
0
0
LINE
5
120
100
AcDbEntity
8
0
100
AcDbLine
10
1.5332120305835328
20
0.031483356398632201
30
0
11
-0.54698098930670014
21
1.2324833563986375
31
0
0
LINE
5
121
100
AcDbEntity
8
0
100
AcDbLine
10
-0.54698098930670014
20
1.2324833563986375
30
0
11
0.95301901069329453
21
3.8305595677519517
31
0
0
LINE
5
122
100
AcDbEntity
8
0
100
AcDbLine
10
0.95301901069329453
20
3.8305595677519517
30
0
11
3.0332120305835097
21
2.6295595677519552
31
0
0
LINE
5
123
100
AcDbEntity
8
0
100
AcDbLine
10
-23.966039958445506
20
2.6295595677519534
30
0
11
-18.716193960704217
21
11.72248335639865
31
0
0
LINE
5
124
100
AcDbEntity
8
0
100
AcDbLine
10
-17.216193960704217
20
14.320559567751964
30
0
11
-11.966413963930984
21
23.413521462075295
31
0
0
LINE
5
125
100
AcDbEntity
8
0
100
AcDbLine
10
3.0332120305835097
20
2.6295595677519552
30
0
11
-2.2166339671577395
21
11.722483356398634
31
0
0
LINE
5
126
100
AcDbEntity
8
0
100
AcDbLine
10
-8.9664139639309859
20
23.413521462075309
30
0
11
-3.7166339671577386
21
14.320559567751946
31
0
0
CIRCLE
5
127
100
AcDbEntity
8
0
100
AcDbCircle
10
-10.466413963930986
20
8.691521462075297
30
0
40
1.5000000000000002
0
ENDSEC
0
SECTION
2
OBJECTS
0
DICTIONARY
5
C
100
AcDbDictionary
3
ACAD_GROUP
350
D
3
ACAD_MLINESTYLE
350
17
0
DICTIONARY
5
D
100
AcDbDictionary
0
DICTIONARY
5
1A
330
C
100
AcDbDictionary
0
DICTIONARY
5
17
100
AcDbDictionary
0
ENDSEC
0
EOF
